Target Audience (Narcissus Narcosis)

Target Audience (Narcissus Narcosis) Bass Tab

Target Audience (Narcissus Narcosis) - Marilyn Manson

By: Jon Craven (i_apathy@hotmail.com)
For questions, comments, feedback, an outline of the timing, write the above
address.

Note:
  -Played with a pick.

(4/4)(72 bpm)
Dropped-D tuning

R - quarter rest
r - eighth rest
* - note held for an eighth beat
/ - slide up
\ - slide down
~ - 1/2 bend

Verse: (x2)(0:34)
|----------------|----------------|
|----------------|----------------|
|----------------|----------------|
|3333333333333333|7777777777777777|

Rest for two measures

Chorus: (x4)(0:54)
|----------------|----------------|
|----------------|----------------|
|----------------|----------------|
|0-0-R---3-3-00-0|2-2-R---1-1-3333|

Bridge: (1:14)
|----------------|-----------------|----------------|----------------|
|----------------|-----------------|----------------|----------------|
|----------------|/-12-*-*-*-*-*-*\|5-*-*-*-*-*-*-*-|----------------|
|0-*-*-*-*-*-*-*-|-----------------|----------------|7-*-*-*-*-*-*-*-|

|-----------------|----------------|
|-----------------|----------------|
|/5-*-*-*-*-*-*-*-|----------------|
|-----------------|7-*-*-*-*-*-*-*-|

Verse (x2)
Rest for two measures
Chorus (x6)

Interlude: (x6)(2:34)
|----------------|----------------|
|----------------|----------------|
|--2---2-~-~-~-~-|----------------|
|2---2-----------|3-7-3-2-*-*-*-*-|

Rest for three measures
Chorus (x8)

Outro: (4:09)
|----------------|
|----------------|
|----------------|
|0-0-R---R---R---|

Rest till end
Bass Tabs
TitleTarget Audience (Narcissus Narcosis)
ArtistMarilyn Manson
Tablature TypeASCII Tab
YouTube IDvOwrhG7iJww

Interactive Bass Tab Guide

Interactive bass tabs provide a better experience than ASCII tabs. With playback, loop, print features and a responsive display that follows the screen of your device.

Use these buttons to control the digital tab player.

SymbolFunction
Move cursor to the first bar
Play interactive tabs
Pause playback
Loop
Print the tab
Zoom
PageSwitch between page and horizontal view mode

How to Read Bass Tab: A Beginner's Guide

1. Understanding the Basics

a. Strings:

Bass tab consists of horizontal lines representing the strings of the bass guitar. The lowest-pitched string (usually the E string) is at the bottom, and the highest-pitched string (usually the G string) is at the top.

b. Numbers:

Numbers on the lines indicate which fret to play on a specific string. For example, if you see "3" on the E string, it means you should press down the third fret on the lowest string.

2. Reading Bass Tab Example

In this tab:

  • Play the note on the 1st fret of the E string.
  • Play the open E string.
  • Play the 3rd fret on the A string.
  • Play the 1st fret on the A string.
        G|-----------------|
        D|-----------------|
        A|---------3-------|
        E|---1-1---1---3---|
    

3. Playing Techniques

a. Hammer-ons and Pull-offs:

Hammer-ons are represented by an "h" (e.g., 5h7 means play the 5th fret and hammer onto the 7th fret). Pull-offs are represented by a "p" (e.g., 7p5 means play the 7th fret and pull off to the 5th fret).

b. Slides:

Slides are often indicated by an "/" or "\\" between two numbers (e.g., 5/7 means slide from the 5th fret to the 7th fret).

BassTabz is a bass tab library maintained by professional Guitar Pro transcribers. With over 15 years of experience, we try to transcribe as accurately as possible, we transcribe bass tabs for free. Learn More

Disclaimer: We do not host images, MP3s or lyrics. This Bass Tab is a transcription by a musician, not written by the original artist, for education and personal use only.
© 2024 BassTabz - WordPress Theme by WPEnjoy