Simula

Simula Bass Tab

 [Intro]
G|------------------------|------------------------|------------------------|------------------------|
D|------------------------|------------------------|------------------------|------------------------|
A|----------------------1/|3-----------0h3---------|----------------------1/|3-----------0h3---------|
E|1-----------1-----------|----------------------3-|1-----------1-----------|----------------------3-|

 [Verse 1]
 "Nanirahan ang gabi"                              "sa iyong kwarto, sa iyong kwarto, sa iyong puso"
G|------------------------|------------------------|------------------------|------------------------|
D|------------------------|------------------------|------------------------|------------------------|
A|----------------------1/|3-----------0h3---------|----------------------1/|3----------0--3---------|
E|1-----------1-----------|--------------------3-3-|1-----------1-----------|------------------3-3-3-|

 "Nakatulog na sa kadiliman"                   "inuugoy pa, inuugoy pa ng katahimikan"
G|-------------------|-------------------------|-------------------|---------------------|
D|-------------------|-------------------------|-------------------|---------------------|
A|------------------/|--3(x7)--0--3(x5)----3---|------------------/|--3(x7)--0--3(x5)----|
E|--1(x7)--0--1(x8)--|-------------------3---3-|--1(x7)--0--1(x8)--|---------------------|

 [Pre-Chorus]
 "Sabihin mo sa 'kin, kailan ako maaaring..."
G|------------------------|------------------------|
D|------------------------|------------------------|
A|-----------------------/|3------------------/7---|
E|1---------------------1-|----------------------8-|

 "...umiyak?"                     "hindi tayo...  "...ang bagyo"     "Darating..."
G|--------------------------------|----------------------------|------------|
D|--------------------------------|----------------------------|------------|
A|--8(x8)--3(x4)--3-3-3-3-3--/12\-|---------3(x8)\--------/3---|--3(x8)\----|
E|--------------------------------|--1(x8)----------1(x8)------|------------|

[Chorus]
 "...ang araw na kakalimutan din natin"
G|-----------------------------------------------|-----------------------------------------------|
D|-----------------------------------------------|-----------------------------------------------|
A|--------------------------------------------0--|3--3------0h3--3------0h3--3------0h3--3-------|
E|1--1------1-1--1------1-1--1------1-1--1-------|--------------------------------------------3\-|

 "...ang lahat"                                  "tatawanan din natin..."
G|-----------------------------------------------|-----------------------------------------------|
D|---------/3--2---------------------------------|-----------------------------------------------|
A|----------------3------------------------------|3--3------0h3--3------0h3--3------0h3--3-------|
E|---1--1------------1----1--1------1-1--1-------|-----------------------------------------------|

 "...ang lahat"
G|-----------------------------------------------|---------------------------------------------|
D|---------/3--2---------------------------------|---------------------------------------------|
A|----------------3-----------------------------/|3--3------0h3--3------0h3-3-3-3-3\-----------|
E|---1--1------------1----1--1------1-1--1-------|---------------------------------------------|

 [Interlude]
G|-------9--10--9---------7---------9--10--9---------7--|
D|---10------------10--7--------10------------10--7-----|
A|8--------------------------8--------------------------|
E|------------------------------------------------------|

G|--------------------------------------------------------|
D|----------10--9-----------------------10--9-------------|
A|---7--10---------10--7--10-----7--10---------10--7--10--|
E|8---------------------------8---------------------------|

G|-------9--10--9---------7---------9--10--9---------7--|
D|---10------------10--7--------10------------10--7-----|
A|8--------------------------8--------------------------|
E|------------------------------------------------------|

G|-----------------------------------------------------|
D|----------10--9-----------------------10--9----------|
A|---7--10---------10--7--10-----7--10---------10--7\--|
E|8---------------------------8------------------------|

 [Verse 2]
 "Sinusubukan punuin"                              "ang sarili, ang sarili, makasarili"
G|------------------------|------------------------|------------------------|------------------------|
D|------------------------|------------------------|------------------------|------------------------|
A|---------------------1/-|3----------------------/|8\----------------------|------------------------|
E|1-----------------------|------------------------|------------------------|---------------------12\|

 [Pre-Chorus]
 "Sabihin mo sa 'kin, ano na ba ang narating?"
G|------------------------|------------------------|
D|------------------------|------------------------|
A|-----------------------/|3-------------------7---|
E|1---------------------1-|------------------8---8-|

 "nagugulumihanan"                "hindi kaya..."  "...ng Diyos"     "Darating..."
G|--------------------------------|----------------------------|------------|
D|--------------------------------|----------------------------|------------|
A|--8(x8)--3(x4)--3-3-3-3-3--/12\-|---------3(x8)\--------/3---|--3(x8)\----|
E|--------------------------------|--1(x8)----------1(x8)------|------------|

[Chorus]
 "ang araw na kakalimutan din natin"
G|-----------------------------------------------|-----------------------------------------------|
D|-----------------------------------------------|-----------------------------------------------|
A|--------------------------------------------0--|3--3------0h3--3------0h3--3------0h3--3-------|
E|1--1--------1--1--------1--1------1-1--1-------|--------------------------------------------3\-|

 "...ang lahat"                                  "tatawanan din natin..."
G|-----------------------------------------------|-----------------------------------------------|
D|---------/3--2---------------------------------|-----------------------------------------------|
A|----------------3------------------------------|3--3------0h3--3------0h3--3------0h3--3-------|
E|---1--1------------1----1--1------1-1--1-------|-----------------------------------------------|

 "...ang lahat"
G|-----------------------------------------------|---------------------------------------------|
D|---------/3--2---------------------------------|---------------------------------------------|
A|----------------3-----------------------------/|3--3------0h3--3------0h3-3-3-3-3\-----------|
E|---1--1------------1----1--1------1-1--1-------|---------------------------------------------|

 [Interlude]
G|-------9--10--9---------7---------9--10--9---------7--|
D|---10------------10--7--------10------------10--7-----|
A|8--------------------------8--------------------------|
E|------------------------------------------------------|

G|--------------------------------------------------------|
D|----------10--9-----------------------10--9-------------|
A|---7--10---------10--7--10-----7--10---------10--7--10--|
E|8---------------------------8---------------------------|

G|-------9--10--9---------7---------9--10--9---------7--|
D|---10------------10--7--------10------------10--7-----|
A|8--------------------------8--------------------------|
E|------------------------------------------------------|

G|-----------------------------------------------------|
D|----------10--9-----------------------10--9----------|
A|---7--10---------10--7--10-----7--10---------10--7\--|
E|8---------------------------8------------------------|

 [Bridge]
 "Walang galamay ang kahapon, walang galamay ang kahapon, walang galamay ang kahapon"
G|------------------------|------------------------|------------------------|------------------------|
D|------------------------|------------------------|------------------------|------------------------|
A|------------------------|------------------------|------------------------|------------------------|
E|------------------------|------------------------|------------------------|---------------------12\|

 "Walang galamay ang kahapon..."
G|----------------------------------------|
D|--------------------------------/5(x8)--|
A|--------/3(x8)\--------/3--3(x6)--------|
E|--1(x8)----------1(x8)------------------|

G|----------------------------------|
D|----------------------------------|
A|--8(x16)--3(x16)--8(x16)--3(x16)--|
E|----------------------------------|

[Outro]
 "Darating ang araw na..."            "...ang lahat"
G|--------------------------------------------------|
D|--------------------------------------------------|
A|----------3(x16)----------3(x16)----------3(x16)--|
E|--1(x16)----------1(x16)----------1(x16)----------|

G|------------------------|
D|------------------------|
A|------------------------|
E|1-----------------------|

************************************
  /  slide up
  \  slide down
  h  hammer-on
************************************
Bass Tabs
TitleSimula
ArtistMunimuni
Tablature TypeASCII Tab
YouTube IDtG-0Mq8M0vI

Interactive Bass Tab Guide

Interactive bass tabs provide a better experience than ASCII tabs. With playback, loop, print features and a responsive display that follows the screen of your device.

Use these buttons to control the digital tab player.

SymbolFunction
Move cursor to the first bar
Play interactive tabs
Pause playback
Loop
Print the tab
Zoom
PageSwitch between page and horizontal view mode

How to Read Bass Tab: A Beginner's Guide

1. Understanding the Basics

a. Strings:

Bass tab consists of horizontal lines representing the strings of the bass guitar. The lowest-pitched string (usually the E string) is at the bottom, and the highest-pitched string (usually the G string) is at the top.

b. Numbers:

Numbers on the lines indicate which fret to play on a specific string. For example, if you see "3" on the E string, it means you should press down the third fret on the lowest string.

2. Reading Bass Tab Example

In this tab:

  • Play the note on the 1st fret of the E string.
  • Play the open E string.
  • Play the 3rd fret on the A string.
  • Play the 1st fret on the A string.
        G|-----------------|
        D|-----------------|
        A|---------3-------|
        E|---1-1---1---3---|
    

3. Playing Techniques

a. Hammer-ons and Pull-offs:

Hammer-ons are represented by an "h" (e.g., 5h7 means play the 5th fret and hammer onto the 7th fret). Pull-offs are represented by a "p" (e.g., 7p5 means play the 7th fret and pull off to the 5th fret).

b. Slides:

Slides are often indicated by an "/" or "\\" between two numbers (e.g., 5/7 means slide from the 5th fret to the 7th fret).

BassTabz is a bass tab library maintained by professional Guitar Pro transcribers. With over 15 years of experience, we try to transcribe as accurately as possible, we transcribe bass tabs for free. Learn More

Disclaimer: We do not host images, MP3s or lyrics. This Bass Tab is a transcription by a musician, not written by the original artist, for education and personal use only.
© 2024 BassTabz - WordPress Theme by WPEnjoy