Remember Where You Are

Remember Where You Are Bass Tab

[Intro]

G|----------------------------------------------------------------|
D|----------------------------------------------------------------|
A|5---------------------------5---5-----------------------x---x---|
E|----------------------------------------------------------------|
  1   e   +   a   2   e   +   a   3   e   +   a   4   e   +   a     

G|----------------------------------------------------------------|
D|----------------------------------------------------0---10--11--|
A|5-------5-------x---5-----------5------/10--11--12--------------|
E|----------------------------x-----------------------------------|
  1   e   +   a   2   e   +   a   3   e   +   a   4   e   +   a    

G|----------------------------------------------------------------|
D|12--0-----------------------------------------------------------|
A|----------------------------5---5-----------------------x---x---|
E|----------------------------------------------------------------|
  1   e   +   a   2   e   +   a   3   e   +   a   4   e   +   a     

G|----------------------------------------------------------------|
D|----------------------------------------------------0---10--11--|
A|5-------5-------x---5-----------5------/10--11--12--------------|
E|----------------------------x-----------------------------------|
  1   e   +   a   2   e   +   a   3   e   +   a   4   e   +   a    

[Chorus 1]

G|----------------------------------------------------------------|
D|12--0-----------------------------------------------------------|
A|----------------------------5---5-----------------------x---x---|
E|----------------------------------------------------------------|
  1   e   +   a   2   e   +   a   3   e   +   a   4   e   +   a     

G|----------------------------------------------------------------|
D|----------------------------------------------------0---10--11--|
A|5-------5-------x---5-----------5------/10--11--12--------------|
E|----------------------------x-----------------------------------|
  1   e   +   a   2   e   +   a   3   e   +   a   4   e   +   a    

G|----------------------------------------------------------------|
D|12--0-----------------------------------------------------------|
A|----------------------------5---5-----------------------x---x---|
E|----------------------------------------------------------------|
  1   e   +   a   2   e   +   a   3   e   +   a   4   e   +   a     

G|----------------------------------------------------------------|
D|----------------------------------------------------0---10--11--|
A|5-------5-------x---5-----------5------/10--11--12--------------|
E|----------------------------x-----------------------------------|
  1   e   +   a   2   e   +   a   3   e   +   a   4   e   +   a    

G|----------------------------------------------------------------|
D|12--0-----------------------------------------------------------|
A|----------------------------5---5-----------------------5---7---|
E|----------------------------------------------------8-----------|
  1   e   +   a   2   e   +   a   3   e   +   a   4   e   +   a     

G|----------------------------------------------------------------|
D|----------------------------------------------------------------|
A|8-------8-------x---8-----------8-------------------------------|
E|----------------------------x-----------------------5---8---7---|
  1   e   +   a   2   e   +   a   3   e   +   a   4   e   +   a  

G|----------------------------------------------------------------|
D|----------------------------------------------------------------|
A|----------------------------------------------------------------|
E|6---------------------------6---6-----------------------6-------|
  1   e   +   a   2   e   +   a   3   e   +   a   4   e   +   a   

G|----------------------------------------------------------------|
D|----------------------------------------5---6---7---0---10--11--|
A|--------------------------------3-------------------------------|
E|3-------3-------x---3-------------------------------------------|
  1   e   +   a   2   e   +   a   3   e   +   a   4   e   +   a   

[Verse 1A]

G|----------------------------------------------------------------|
D|12--0-----------------------------------------------------------|
A|----------------------------5---5-----------------------x---x---|
E|----------------------------------------------------------------|
  1   e   +   a   2   e   +   a   3   e   +   a   4   e   +   a     

G|----------------------------------------------------------------|
D|----------------------------------------------------5-/-7-\-----|
A|5-------5-------x---5-----------5-------------------------------|
E|----------------------------x-----------------------------------|
  1   e   +   a   2   e   +   a   3   e   +   a   4   e   +   a    

G|----------------------------------------------------------------|
D|----------------------------------------------------------------|
A|5---------------------------5---5-----------------------x---x---|
E|----------------------------------------------------------------|
  1   e   +   a   2   e   +   a   3   e   +   a   4   e   +   a     

G|----------------------------------------------------------------|
D|----------------------------------------------------0---10--11--|
A|5-------5-------x---5-----------5------/10--11--12--------------|
E|----------------------------x-----------------------------------|
  1   e   +   a   2   e   +   a   3   e   +   a   4   e   +   a    

G|----------------------------------------------------------------|
D|12--0-----------------------------------------------------------|
A|----------------------------5---5-----------------------x---x---|
E|----------------------------------------------------------------|
  1   e   +   a   2   e   +   a   3   e   +   a   4   e   +   a     

G|----------------------------------------------------------------|
D|----------------------------------------------------------------|
A|5-------5-------x---5-----------5-----------------------x---x---|
E|----------------------------x-----------------------------------|
  1   e   +   a   2   e   +   a   3   e   +   a   4   e   +   a    

G|----------------------------------------------------------------|
D|----------------------------------------------------------------|
A|5---------------------------5---5-----------------------x---x---|
E|----------------------------------------------------------------|
  1   e   +   a   2   e   +   a   3   e   +   a   4   e   +   a     

G|----------------------------------------------------------------|
D|----------------------------------------------------0---10--11--|
A|5-------5-------x---5-----------5------/10--11--12--------------|
E|----------------------------x-----------------------------------|
  1   e   +   a   2   e   +   a   3   e   +   a   4   e   +   a    

[Verse 1B]

G|----------------------------------------------------------------|
D|12--0-----------------------------------------------------------|
A|----------------------------5---5-----------------------x---x---|
E|----------------------------------------------------------------|
  1   e   +   a   2   e   +   a   3   e   +   a   4   e   +   a     

G|----------------------------------------------------------------|
D|----------------------------------------------------------------|
A|5-------5-------x---5-----------5-----------------------x---x---|
E|----------------------------x-----------------------------------|
  1   e   +   a   2   e   +   a   3   e   +   a   4   e   +   a    

G|----------------------------------------------------------------|
D|----------------------------------------------------------------|
A|5---------------------------5---5-----------------------x---x---|
E|----------------------------------------------------------------|
  1   e   +   a   2   e   +   a   3   e   +   a   4   e   +   a     

G|----------------------------------------------------------------|
D|----------------------------------------------------0---10--11--|
A|5-------------------------------5------/10--11--12--------------|
E|----------------------------------------------------------------|
  1   e   +   a   2   e   +   a   3   e   +   a   4   e   +   a    

G|----------------------------------------------------------------|
D|12--0-----------------------------------------------------------|
A|----------------------------5---5-----------------------x---x---|
E|----------------------------------------------------------------|
  1   e   +   a   2   e   +   a   3   e   +   a   4   e   +   a     

G|----------------------------------------------------------------|
D|----------------------------------------------------------------|
A|5-------5-------x---5-----------5-----------------------x---x---|
E|----------------------------x-----------------------------------|
  1   e   +   a   2   e   +   a   3   e   +   a   4   e   +   a    

G|----------------------------------------------------------------|
D|----------------------------------------------------------------|
A|5---------------------------5---5-----------------------x---x---|
E|----------------------------------------------------------------|
  1   e   +   a   2   e   +   a   3   e   +   a   4   e   +   a     

G|----------------------------------------------------------------|
D|----------------------------------------------------0---10--9---|
A|5-------5-------x---5-----------5------/10--11--12--------------|
E|----------------------------x-----------------------------------|
  1   e   +   a   2   e   +   a   3   e   +   a   4   e   +   a    

[Pre-chorus 1]

G|----------------------------------------------------------------|
D|8---------------------------------------------------------------|
A|--------------------------------------------------------x---x---|
E|----------------------------x---8-------------------------------|
  1   e   +   a   2   e   +   a   3   e   +   a   4   e   +   a     

G|----------------------------------------------------------------|
D|----------------------------------------------------------------|
A|5-------5-----------5-----------8-------8-----------8---\-------|
E|----------------------------------------------------------------|
  1   e   +   a   2   e   +   a   3   e   +   a   4   e   +   a    

G|----------------------------------------------------------------|
D|----------------------------------------------------------------|
A|----------------------------------------------------------------|
E|6---------------------------6---8-----------------------8-/-10-/|
  1   e   +   a   2   e   +   a   3   e   +   a   4   e   +   a     

G|----------------------------------------------------------------|
D|----------------------------------------------------------------|
A|----------------------------------------------------------------|
E|/17-----17------17------17------17------17------17------\-------|
  1   e   +   a   2   e   +   a   3   e   +   a   4   e   +   a      

[Chorus 2]

G|----------------------------------------------------------------|
D|----------------------------------------------------------------|
A|5---------------------------5---5-----------------------5---/---|
E|----------------------------------------------------------------|
  1   e   +   a   2   e   +   a   3   e   +   a   4   e   +   a    

G|----------------------------------------------------------------|
D|----------------------------------------------------------------|
A|8-------8-----------8-----------8-------------------------------|
E|--------------------------------------------------------8---7---|
  1   e   +   a   2   e   +   a   3   e   +   a   4   e   +   a    

G|----------------------------------------------------------------|
D|----------------------------------------------------------------|
A|----------------------------------------------------------------|
E|6---------------------------6---6-----------------------6---\---|
  1   e   +   a   2   e   +   a   3   e   +   a   4   e   +   a   

G|----------------------------------------------------------------|
D|----------------------------------------5---6---7---0---10--11--|
A|--------------------------------3-------------------------------|
E|3-------3-----------3-------------------------------------------|
  1   e   +   a   2   e   +   a   3   e   +   a   4   e   +   a   

G|----------------------------------------------------------------|
D|----------------------------------------------------------------|
A|5---------------------------5---5-----------------------5---7---|
E|----------------------------------------------------------------|
  1   e   +   a   2   e   +   a   3   e   +   a   4   e   +   a    

G|----------------------------------------------------------------|
D|----------------------------------------------------------------|
A|8-------8-----------8-----------8-------------------------------|
E|----------------------------------------------------x---8---7---|
  1   e   +   a   2   e   +   a   3   e   +   a   4   e   +   a    

G|----------------------------------------------------------------|
D|----------------------------------------------------------------|
A|----------------------------------------------------------------|
E|6---------------------------6---6-----------------------6---\---|
  1   e   +   a   2   e   +   a   3   e   +   a   4   e   +   a   

G|----------------------------------------------------------------|
D|----------------------------------------5---6---7---0---10--11--|
A|--------------------------------3-------------------------------|
E|3-------3-----------3-------------------------------------------|
  1   e   +   a   2   e   +   a   3   e   +   a   4   e   +   a   

[Post-chorus 2]

G|----------------------------------------------------------------|
D|12--0-----------------------------------------------------------|
A|----------------------------5---5-----------------------x---x---|
E|----------------------------------------------------------------|
  1   e   +   a   2   e   +   a   3   e   +   a   4   e   +   a  

G|----------------------------------------------------------------|
D|----------------------------------------------------0---10--11--|
A|5-------5-------x---5-----------5------/10--11--12--------------|
E|----------------------------x-----------------------------------|
  1   e   +   a   2   e   +   a   3   e   +   a   4   e   +   a    

G|----------------------------------------------------------------|
D|12--0-----------------------------------------------------------|
A|----------------------------5---5-----------------------x---x---|
E|----------------------------------------------------------------|
  1   e   +   a   2   e   +   a   3   e   +   a   4   e   +   a  

G|----------------------------------------------------------------|
D|----------------------------------------------------0---10--11--|
A|5-------5-------x---5-----------5------/10--11--12--------------|
E|----------------------------x-----------------------------------|
  1   e   +   a   2   e   +   a   3   e   +   a   4   e   +   a    

G|----------------------------------------------------------------|
D|12--0-----------------------------------------------------------|
A|----------------------------5---5-----------------------x---x---|
E|----------------------------------------------------------------|
  1   e   +   a   2   e   +   a   3   e   +   a   4   e   +   a  

G|----------------------------------------------------------------|
D|----------------------------------------------------0---10--11--|
A|5-------5-------x---5-----------5------/10--11--12--------------|
E|----------------------------x-----------------------------------|
  1   e   +   a   2   e   +   a   3   e   +   a   4   e   +   a    

G|----------------------------------------------------------------|
D|12--0-----------------------------------------------------------|
A|----------------------------5---5-----------------------x---x---|
E|----------------------------------------------------------------|
  1   e   +   a   2   e   +   a   3   e   +   a   4   e   +   a  

G|----------------------------------------------------------------|
D|----------------------------------------------------0---10--11--|
A|5-------5-------x---5-----------5------/10--11--12--------------|
E|----------------------------x-----------------------------------|
  1   e   +   a   2   e   +   a   3   e   +   a   4   e   +   a    

[Verse 2]

G|----------------------------------------------------------------|
D|12--0-----------------------------------------------------------|
A|----------------------------5---5-----------------------x---x---|
E|----------------------------------------------------------------|

  1   e   +   a   2   e   +   a   3   e   +   a   4   e   +   a
G|----------------------------------------------------------------|
D|----------------------------------------------------------------|
A|5-------5-------x---5-----------5-----------------------x---x---|
E|----------------------------x-----------------------------------|
  1   e   +   a   2   e   +   a   3   e   +   a   4   e   +   a    

G|----------------------------------------------------------------|
D|----------------------------------------------------------------|
A|5---------------------------5---5-----------------------x---x---|
E|----------------------------------------------------------------|
  1   e   +   a   2   e   +   a   3   e   +   a   4   e   +   a     

G|----------------------------------------------------------------|
D|----------------------------------------------------0---10--11--|
A|5-------5-------x---5-----------5------/10--11--12--------------|
E|----------------------------x-----------------------------------|
  1   e   +   a   2   e   +   a   3   e   +   a   4   e   +   a    

G|----------------------------------------------------------------|
D|12--0-----------------------------------------------------------|
A|----------------------------5---5-----------------------x---x---|
E|----------------------------------------------------------------|
  1   e   +   a   2   e   +   a   3   e   +   a   4   e   +   a     

G|----------------------------------------------------------------|
D|----------------------------------------------------5-/-7-\-----|
A|5-------5-------x---5-----------5-------------------------------|
E|----------------------------x-----------------------------------|
  1   e   +   a   2   e   +   a   3   e   +   a   4   e   +   a    

G|----------------------------------------------------------------|
D|----------------------------------------------------------------|
A|5---------------------------5---5-----------------------x---x---|
E|----------------------------------------------------------------|
  1   e   +   a   2   e   +   a   3   e   +   a   4   e   +   a     

G|----------------------------------------------------------------|
D|----------------------------------------------------------------|
A|5-------5-------x---5-----------5------/10--11--12--0-----------|
E|----------------------------x---------------------------8---7---|
  1   e   +   a   2   e   +   a   3   e   +   a   4   e   +   a    

[Pre-chorus 2]

G|----------------------------------------------------------------|
D|----------------------------------------------------------------|
A|------------------------------------------------------------4---|
E|6---------------------------6---8-----------------------8-------|
  1   e   +   a   2   e   +   a   3   e   +   a   4   e   +   a     

G|----------------------------------------------------------------|
D|----------------------------------------------------------------|
A|5-------5-----------5-----------8-------8-----------8-----------|
E|----------------------------------------------------------------|
  1   e   +   a   2   e   +   a   3   e   +   a   4   e   +   a    

G|----------------------------------------------------------------|
D|----------------------------------------------------------------|
A|----------------------------------------------------------------|
E|6---------------------------6---8-----------------------8-------|
  1   e   +   a   2   e   +   a   3   e   +   a   4   e   +   a     

G|----------------------------------------------------------------|
D|----------------------------------------------------------------|
A|5-------5-----------5-----------8-------8-----------8-----------|
E|----------------------------------------------------------------|
  1   e   +   a   2   e   +   a   3   e   +   a   4   e   +   a    

G|----------------------------------------------------------------|
D|----------------------------------------------------------------|
A|----------------------------------------------------------------|
E|6---------------------------6---8-----------------------8-------|
  1   e   +   a   2   e   +   a   3   e   +   a   4   e   +   a     

G|----------------------------------------------------------------|
D|----------------------------------------------------------------|
A|5-------5-----------5-----------8-------8-----------8-----------|
E|----------------------------------------------------------------|
  1   e   +   a   2   e   +   a   3   e   +   a   4   e   +   a    

G|----------------------------------------------------------------|
D|----------------------------------------------------------------|
A|----------------------------------------------------------------|
E|6---------------x-----------6---6---------------6-------/-------|
  1   e   +   a   2   e   +   a   3   e   +   a   4   e   +   a     

G|----------------------------------------------------------------|
D|----------------------------------------------------------------|
A|----------------------------------------------------------------|
E|/17-----17------17------17------17------17------17------\-------|
  1   e   +   a   2   e   +   a   3   e   +   a   4   e   +   a     

[Chorus 3]

G|----------------------------------------------------------------|
D|----------------------------------------------------------------|
A|5---------------------------5---5-----------------------5---/---|
E|----------------------------------------------------------------|
  1   e   +   a   2   e   +   a   3   e   +   a   4   e   +   a    

G|----------------------------------------------------------------|
D|----------------------------------------------------------------|
A|8-------8-----------8-----------8-------------------------------|
E|--------------------------------------------------------8---7---|
  1   e   +   a   2   e   +   a   3   e   +   a   4   e   +   a    

G|----------------------------------------------------------------|
D|----------------------------------------------------------------|
A|----------------------------------------------------------------|
E|6---------------------------6---6-----------------------x---x---|
  1   e   +   a   2   e   +   a   3   e   +   a   4   e   +   a   

G|----------------------------------------------------------------|
D|----------------------------------------5---6---7---0---10--11--|
A|--------------------------------3-------------------------------|
E|3-------3-----------3-------------------------------------------|
  1   e   +   a   2   e   +   a   3   e   +   a   4   e   +   a   

G|----------------------------------------------------------------|
D|----------------------------------------------------------------|
A|5---------------------------5---5---------------5-------5---7---|
E|----------------------------------------------------------------|
  1   e   +   a   2   e   +   a   3   e   +   a   4   e   +   a    

G|----------------------------------------------------------------|
D|----------------------------------------------------------------|
A|8-------8-----------8-----------8-------------------------------|
E|----------------------------------------------------x---8---7---|
  1   e   +   a   2   e   +   a   3   e   +   a   4   e   +   a    

G|----------------------------------------------------------------|
D|----------------------------------------------------------------|
A|----------------------------------------------------------------|
E|6-------6-----------6-----------6-------------------------------|
  1   e   +   a   2   e   +   a   3   e   +   a   4   e   +   a   

G|----------------------------------------------------------------|
D|----------------------------------------5---6---7---0---10--11--|
A|--------------------------------3-------------------------------|
E|3-------3-----------3-------------------------------------------|
  1   e   +   a   2   e   +   a   3   e   +   a   4   e   +   a   

[Post Chorus 3]

G|----------------------------------------------------------------|
D|12--0-----------------------------------------------------------|
A|----------------------------5---5-----------------------x---x---|
E|----------------------------------------------------------------|
  1   e   +   a   2   e   +   a   3   e   +   a   4   e   +   a     

G|----------------------------------------------------------------|
D|----------------------------------------------------------------|
A|5-------5-------x---5-----------5-------------------------------|
E|----------------------------x-----------------------------------|
  1   e   +   a   2   e   +   a   3   e   +   a   4   e   +   a    

G|----------------------------------------------------------------|
D|----------------------------------------------------------------|
A|5---------------------------5---5-----------------------x---x---|
E|----------------------------------------------------------------|
  1   e   +   a   2   e   +   a   3   e   +   a   4   e   +   a     

G|----------------------------------------------------------------|
D|----------------------------------------------------0---10--11--|
A|5-------5-------x---5-----------5------/10--11--12--------------|
E|----------------------------x-----------------------------------|
  1   e   +   a   2   e   +   a   3   e   +   a   4   e   +   a    

G|----------------------------------------------------------------|
D|12--0-----------------------------------------------------------|
A|----------------------------5---5-----------------------x---x---|
E|----------------------------------------------------------------|
  1   e   +   a   2   e   +   a   3   e   +   a   4   e   +   a     

G|----------------------------------------------------------------|
D|----------------------------------------------------------------|
A|5-------5-------x---5-----------5-------------------------------|
E|----------------------------x-----------------------------------|
  1   e   +   a   2   e   +   a   3   e   +   a   4   e   +   a    

G|----------------------------------------------------------------|
D|----------------------------------------------------------------|
A|5---------------------------5---5-------------------------------|
E|----------------------------------------------------------------|
  1   e   +   a   2   e   +   a   3   e   +   a   4   e   +   a     

G|----------------------------------------------------------------|
D|----------------------------------------------------0---10--11--|
A|5--------------------------------------/10--11--12--------------|
E|----------------------------------------------------------------|
  1   e   +   a   2   e   +   a   3   e   +   a   4   e   +   a    

[Outro]

G|----------------------------------------------------------------|
D|12--0-----------------------------------------------------------|
A|----------------------------5---5-------------------------------|
E|----------------------------------------------------------------|
  1   e   +   a   2   e   +   a   3   e   +   a   4   e   +   a     

G|----------------------------------------------------------------|
D|----------------------------------------------------------------|
A|----------------------------------------------------------------|
E|3-------3-----------3-----------3-----------------------x---x---|
  1   e   +   a   2   e   +   a   3   e   +   a   4   e   +   a    

G|----------------------------------------------------------------|
D|----------------------------------------------------------------|
A|--------------------------------------------------------5---4---|
E|2---------------------------2---2-------------------2-----------|
  1   e   +   a   2   e   +   a   3   e   +   a   4   e   +   a    

G|----------------------------------------------------------------|
D|----------------------------------------------------0---10--11--|
A|3-------3------------------------------/10--11--12--------------|
E|----------------x---8-----------8-------------------------------|
  1   e   +   a   2   e   +   a   3   e   +   a   4   e   +   a    

G|----------------------------------------------------------------|
D|12--0-----------------------------------------------------------|
A|----------------------------5---5-----------------------5-------|
E|----------------------------------------------------------------|
  1   e   +   a   2   e   +   a   3   e   +   a   4   e   +   a     

G|----------------------------------------------------------------|
D|----------------------------------------------------------------|
A|----------------------------------------------------------------|
E|3-------3-----------3-----------3-----------------------x---x---|
  1   e   +   a   2   e   +   a   3   e   +   a   4   e   +   a    

G|----------------------------------------------------------------|
D|----------------------------------------------------------------|
A|--------------------------------------------------------5---4---|
E|2---------------------------2---2-------------------2-----------|
  1   e   +   a   2   e   +   a   3   e   +   a   4   e   +   a    

G|----------------------------------------------------------------|
D|----------------------------------------------------0---10--11--|
A|3-------3------------------------------/10--11--12--------------|
E|----------------x---8-----------8-------------------------------|
  1   e   +   a   2   e   +   a   3   e   +   a   4   e   +   a    

G|----------------------------------------------------------------|
D|12--0-----------------------------------------------------------|
A|----------------------------5---5-----------------------5-------|
E|----------------------------------------------------------------|
  1   e   +   a   2   e   +   a   3   e   +   a   4   e   +   a     

G|----------------------------------------------------------------|
D|--------------------------------5-------------------------------|
A|--------------------5-------------------------------------------|
E|3-------3---------------------------------------3---------------|
  1   e   +   a   2   e   +   a   3   e   +   a   4   e   +   a    

G|----------------------------------------------------------------|
D|----------------------------------------------------------------|
A|--------------------------------------------------------5---4---|
E|2---------------------------2---2-------------------2-----------|
  1   e   +   a   2   e   +   a   3   e   +   a   4   e   +   a    

G|----------------------------------------------------------------|
D|----------------------------------------------------0---10--11--|
A|3-------3------------------------------/10--11--12--------------|
E|----------------x---8-----------8-------------------------------|
  1   e   +   a   2   e   +   a   3   e   +   a   4   e   +   a    

G|----------------------------------------------------------------|
D|12--0-----------------------------------------------------------|
A|----------------------------5---5-------------------5-----------|
E|----------------------------------------------------------------|
  1   e   +   a   2   e   +   a   3   e   +   a   4   e   +   a     

G|----------------------------------------------------------------|
D|--------------------------------7---------------7---------------|
A|--------------------5-----------------------5-------------------|
E|3-------3-------------------------------------------------------|
  1   e   +   a   2   e   +   a   3   e   +   a   4   e   +   a    

G|----------------------------------------------------------------|
D|----------------------------------------------------------------|
A|--------------------------------------------------------5---4---|
E|2---------------------------2---2-------------------2-----------|
  1   e   +   a   2   e   +   a   3   e   +   a   4   e   +   a    

G|----------------------------------------------------------------|
D|----------------------------------------------------0---10--11--|
A|3-------3------------------------------/10--11--12--------------|
E|----------------x---8-----------8-------------------------------|
  1   e   +   a   2   e   +   a   3   e   +   a   4   e   +   a    

[Outro Chorus]

G|----------------------------------------------------------------|\
D|12--0-----------------------------------------------------------| \
A|----------------------------5---5-----------------------x---x---|  |
E|----------------------------------------------------------------|  |
  1   e   +   a   2   e   +   a   3   e   +   a   4   e   +   a      |
                                                                     | x7
G|----------------------------------------------------------------|  |
D|----------------------------------------------------0---10--11--|  |
A|5-------5-------x---5-----------5------/10--11--12--------------| /
E|----------------------------x-----------------------------------|/
  1   e   +   a   2   e   +   a   3   e   +   a   4   e   +   a    

G|----------------------------------------------------------------|
D|12--0-----------------------------------------------------------|
A|----------------------------5---5-------------------------------|
E|------------------------------------------------------------8---|
  1   e   +   a   2   e   +   a   3   e   +   a   4   e   +   a    

G|----------------------------------------------------------------|
D|----------------------------------------------------------------|
A|5-------5-------5-----------------------------------------------|
E|----------------------------------------------------------------|
  1   e   +   a   2   e   +   a   3   e   +   a   4   e   +   a    

***********************************

| x   Dead note
| /   Slide-up
| \   Slide-down

***********************************
Bass Tabs
TitleRemember Where You Are
ArtistJessie Ware
Tablature TypeASCII Tab
YouTube IDPhw62_Im1Q0

Interactive Bass Tab Guide

Interactive bass tabs provide a better experience than ASCII tabs. With playback, loop, print features and a responsive display that follows the screen of your device.

Use these buttons to control the digital tab player.

SymbolFunction
Move cursor to the first bar
Play interactive tabs
Pause playback
Loop
Print the tab
Zoom
PageSwitch between page and horizontal view mode

How to Read Bass Tab: A Beginner's Guide

1. Understanding the Basics

a. Strings:

Bass tab consists of horizontal lines representing the strings of the bass guitar. The lowest-pitched string (usually the E string) is at the bottom, and the highest-pitched string (usually the G string) is at the top.

b. Numbers:

Numbers on the lines indicate which fret to play on a specific string. For example, if you see "3" on the E string, it means you should press down the third fret on the lowest string.

2. Reading Bass Tab Example

In this tab:

  • Play the note on the 1st fret of the E string.
  • Play the open E string.
  • Play the 3rd fret on the A string.
  • Play the 1st fret on the A string.
        G|-----------------|
        D|-----------------|
        A|---------3-------|
        E|---1-1---1---3---|
    

3. Playing Techniques

a. Hammer-ons and Pull-offs:

Hammer-ons are represented by an "h" (e.g., 5h7 means play the 5th fret and hammer onto the 7th fret). Pull-offs are represented by a "p" (e.g., 7p5 means play the 7th fret and pull off to the 5th fret).

b. Slides:

Slides are often indicated by an "/" or "\\" between two numbers (e.g., 5/7 means slide from the 5th fret to the 7th fret).

BassTabz is a bass tab library maintained by professional Guitar Pro transcribers. With over 15 years of experience, we try to transcribe as accurately as possible, we transcribe bass tabs for free. Learn More

Disclaimer: We do not host images, MP3s or lyrics. This Bass Tab is a transcription by a musician, not written by the original artist, for education and personal use only.
© 2024 BassTabz - WordPress Theme by WPEnjoy