Light Grenades

Light Grenades

LIGHT GRENADES (Bassline)
As recorded by Incubus
(From the 2006 Album LIGHT GRENADES)

Transcribed by Whoabot

Words and Music by Incubus
Arranged by Incubus

Gtr I (E A D G) - 'Untitled'

 Intro
  Q=239
 4/4
  Gtr I
  Wx8
|--------|
|--------|
|--------|
|--------|

    E E E Q  E E E   E E E E E E q    E E E Q  E E E
||-----------------|----------------|----------------|
||o----------------|----------------|----------------|
||o-5-3p0----0-3p0-|-6p0-3p0--------|-5-3p0----0-3p0-|
||--------4--------|---------2-2-2--|-------4--------|

 1.                 2.
  E E E E E E q      E E E E E q  E
|-----------------||-----------------||
|----------------o||-----------------||
|----------------o||-----------------||
|-4-4-4-4-4-4-4---||-4-4-4-4-4-4--4--||

 Verse
  +e  E q  Q.   E   +e  E q  Q.   E   +e  E q  Q.   E   +e  E q  Q.   E
|-----------------|-----------------|-----------------|------------------|
|-----------------|-----------------|-----------------|------------------|
|-----------------|-----------------|-----------------|------------------|
|-(4)-2-4-------4-|-(4)-2-4-------4-|-(4)-2-4-------4-|-(4)-2-4-------1--|

  +E  E E E E E E E   E E E E E E E E   +e  E q  Q.   E   +e  E q  Q.   E
|-------------------|-----------------|-----------------|------------------|
|-------------------|-----------------|-----------------|------------------|
|-------------------|-----------------|-----------------|------------------|
|-(1)-1-1-1-1-1-1-0-|-0-0-0-0-0-0-0-4-|-(4)-2-4-------4-|-(4)-2-4-------4--|

  +e  E q  Q.   E   +e  E q  Q.   E   +E  E E E E E E E
|-----------------|-----------------|-------------------|
|-----------------|-----------------|-------------------|
|-----------------|-----------------|-------------------|
|-(4)-2-4-------4-|-(4)-2-4-------1-|-(1)-1-1-1-1-1-1-0-|

  E E E E E E E  E   +E  E E E E E E E   E E E E E E E E
|------------------|-------------------|-----------------||
|------------------|-------------------|-----------------||
|---------------/8-|-(8)-8-8-8-8-8-8-7-|-7-7-7-7-7p4-----||
|-0-0-0-0-0-0-0----|-------------------|-------------7p4-||

 horus
  +E  E Q  E E E E   +E  E Q  E E E E   +E  E Q  E E E E   +E  E Q  E E E E
|------------------|------------------|------------------|-------------------|
|------------------|------------------|------------------|-------------------|
|------------------|------------------|----------------6-|-(6)-6-6--6-6------|
|-(4)-4-4--4-4-4-3-|-(3)-3-3--3-3-3-0-|-(0)-0-0--0-0-0---|--------------6-4--|

  +E  E Q  E E E E   +E  E Q  E E E E   +E  E E E H      H.      E E
|------------------|------------------|----------------|--------------||
|------------------|----------------2-|-(2)-2-2-2------|--------------||
|------------------|------------------|----------------|--------------||
|-(4)-4-4--4-4-4-3-|-(3)-3-3--3-3-3---|----------------|-----------4--||

 Bridge
  +e  E q  Q.   E   +e  E q  Q.   E   +e  E q  Q.   E   +e  E q  E E E E
|-----------------|-----------------|-----------------|-------------------||
|-----------------|-----------------|-----------------|--------------4h6--||
|-----------------|-----------------|-----------------|----------4h6------||
|-(4)-2-4-------4-|-(4)-2-4-------4-|-(4)-2-4-------4-|-(4)-2-4-----------||

 Verse
  +H.       E E   +e  E q  Q.   E   +e  E q  Q.   E   +e  E q  Q.   E
|---------------|-----------------|-----------------|------------------|
|-(6)\----------|-----------------|-----------------|------------------|
|---------------|-----------------|-----------------|------------------|
|-------------4-|-(4)-2-4-------4-|-(4)-2-4-------4-|-(4)-2-4-------1--|

  +E  E E E E E E E   E E E E E E E E   +e  E q  Q.   E   +e  E q  Q.   E
|-------------------|-----------------|-----------------|------------------|
|-------------------|-----------------|-----------------|------------------|
|-------------------|-----------------|-----------------|------------------|
|-(1)-1-1-1-1-1-1-0-|-0-0-0-0-0-0-0-4-|-(4)-2-4-------4-|-(4)-2-4-------4--|

  +e  E q  Q.   E   +e  E q  Q.   E   +E  E E E E E E E
|-----------------|-----------------|-------------------|
|-----------------|-----------------|-------------------|
|-----------------|-----------------|-------------------|
|-(4)-2-4-------4-|-(4)-2-4-------1-|-(1)-1-1-1-1-1-1-0-|

  E E E E E E E  E   +E  E E E E E E E   E E E E E E E E
|------------------|-------------------|-----------------||
|------------------|-------------------|-----------------||
|---------------/8-|-(8)-8-8-8-8-8-8-7-|-7-7-7-7-7-7-7---||
|-0-0-0-0-0-0-0----|-------------------|---------------4-||

   Chorus
    +E  E Q  E E E E   +E  E Q  E E E E   +E  E Q  E E E E   +E  E E E Q  E E
||-------------------|------------------|------------------|------------------|
||o------------------|------------------|------------------|------------------|
||o------------------|------------------|----------------6-|-(6)-6-6-6-6--6---|
||--(4)-4-4--4-4-4-3-|-(3)-3-3--3-3-3-0-|-(0)-0-0--0-0-0---|----------------4-|

                                                        1.              2.
  +E  E Q  E E E E   +E  E Q  E E E E   +Q   E Q  Q.     H.      E E     W
|------------------|------------------|----------------|--------------||------||
|------------------|------------------|----------------|-------------o||------||
|------------------|------------------|----------------|-------------o||------||
|-(4)-4-4--4-4-4-3-|-(3)-3-3--3-3-3-0-|-(0)--0-0-------|-----------4--||------||

   Bridge
    PM----------------------------------------------------------------|
    E E E Q  E E E   E E E E E E E E   E E E Q  E E E   E E E E E E E E
||-----------------|-----------------|----------------|------------------||
||o----------------|-----------------|----------------|-----------------o||
||o-5-3p0----0-3p0-|-6p0-3p0---------|-5-3p0----0-3p0-|-----------------o||
||--------4--------|---------2-2-2-2-|-------4--------|-4-4-4-4-4-4-4-4--||

   [G]uitar Solo
    E E E Q  E E E   E E E E E E E E   E E E Q  E E E
||-----------------|-----------------|----------------|
||o----------------|-----------------|----------------|
||o-5-3p0----0-3p0-|-6p0-3p0---------|-5-3p0----0-3p0-|
||--------4--------|---------2-2-2-2-|-------4--------|

 1.,2.,3.            4.
  E E E E E E E E  4x E E E E E E E E
|------------------||------------------||
|-----------------o||------------------||
|-----------------o||------------------||
|-4-4-4-4-4-4-4-4--||-4-4-4-4-4-4-4-4--||

 Pre-Chorus
  +Q.    q.   Q    Wx6          H.      E E
|----------------|------------|-------------||
|----------------|------------|-------------||
|----------------|------------|-------------||
|-(4)s==15-------|------------|-----------4-||

   Out-Chorus
    +E  E Q  E E E E   +E  E Q  E E E E
||-------------------|------------------|
||o------------------|------------------|
||o------------------|------------------|
||--(4)-4-4--4-4-4-3-|-(3)-3-3--3-3-3-0-|

  +E  E Q  E E E E   +E  E Q  E E E E
|------------------|-------------------||
|------------------|------------------o||
|----------------6-|-(6)-6-6--6h8-----o||
|-(0)-0-0--0-0-0---|--------------6-4--||

 Outro
  +E  E Q  E E E E   +E  E Q  E E E E   +E  E Q  E E E E   +E  E Q  E E E E
|------------------|------------------|------------------|-------------------|
|------------------|------------------|------------------|-------------------|
|------------------|------------------|----------------6-|-(6)-6-6--6h8------|
|-(4)-4-4--4-4-4-3-|-(3)-3-3--3-3-3-0-|-(0)-0-0--0-0-0---|--------------6-4--|

  +E  E Q  E E E E   +E  E Q  E E E E
|------------------|------------------|
|------------------|------------------|
|------------------|------------------|
|-(4)-4-4--4-4-4-3-|-(3)-3-3--3-3-3-0-|

  +E  E Q  E E E E   +E  E Q   E  E  E  E
|------------------|-----------------------|
|------------------|-----------------------|
|----------------6-|-(6)-6-6--10-10-10-11--|
|-(0)-0-0--0-0-0---|-----------------------|

     E  E  E  E  E  E  E  E    E  E  E  E  E  E  E E
||--------------------------|------------------------|
||o-------------------------|------------------------|
||o-11-11-11-11-11-11-11-10-|-10-10-10-10-10-10-10-7-|
||--------------------------|------------------------|

                   1.                      2.
  E E E E E E E E   E E E E  E  E  E  E     E E E E E E E E
|-----------------|----------------------||------------------||
|-----------------|---------------------o||------------------||
|-7-7-7-7-7-7-7-6-|-6-6-6-6-10-10-10-11-o||-6-6-6-6-6-6-6-6--||
|-----------------|----------------------||------------------||

 Brandon Scream Of Death
  E E E Q  E E E   E E E E E E Q    E E E Q  E E E   E E E E E E E E   Wx2
|----------------|----------------|----------------|-----------------|--------*|
|----------------|----------------|----------------|-----------------|--------*|
|-5-3p0----0-3p0-|-6p0-3p0--------|-5-3p0----0-3p0-|-----------------|--------*|
|-------4--------|---------2-2-2--|-------4--------|-4-4-4-4-4-4-4-4-|--------*|

Duration Legend
---------------
W - whole; H - half; Q - quarter; E - 8th; S - 16th; T - 32nd; X - 64th; a - acciaccatura
+ - note tied to previous; . - note dotted; .. - note double dotted
Uncapitalized letters represent notes that are staccato (1/2 duration)
Irregular groupings are notated above the duration line
Duration letters will always appear directly above the note/fret number it represents the
duration for.  Duration letters with no fret number below them represent rests.  Multi-
bar rests are notated in the form Wxn, where n is the number of bars to rest for.  Low
melody durations appear below the staff

Tablature Legend
----------------
 h   - hammer-on
 p   - pull-off
 b   - bend
 pb  - pre-bend
 r   - bend release (if no number after the r, then release immediately)
 /\  - slide into or out of (from/to "nowhere")
 s   - legato slide
 S   - shift slide
 - natural harmonic
[n]  - artificial harmonic
n(n) - tapped harmonic
 ~   - vibrato
 tr  - trill
 T   - tap
 TP  - trem. picking
 PM  - palm muting
\n/  - tremolo bar dip; n = amount to dip
 \n  - tremolo bar down
 n/  - tremolo bar up
/n\  - tremolo bar inverted dip
 =   - hold bend; also acts as connecting device for hammers/pulls
 <> - volume swell (louder/softer)
 x   - on rhythm slash represents muted slash
 o   - on rhythm slash represents single note slash

Misc Legend
-----------
 |  - bar
||  - double bar
||o - repeat start
o|| - repeat end
*|  - double bar (ending)
 :  - bar (freetime)
 $  - Segno
 &  - Coda
Tempo markers -  = BPM(8/16=s8/s16), where s8 = swing 8ths, s16 = swing 16ths
Bass Tabs
TitleLight Grenades
ArtistIncubus
Tablature TypeASCII Tab
YouTube IDiR7xfJkR0Fw

Interactive Bass Tab Guide

Interactive bass tabs provide a better experience than ASCII tabs. With playback, loop, print features and a responsive display that follows the screen of your device.

Use these buttons to control the digital tab player.

SymbolFunction
Move cursor to the first bar
Play interactive tabs
Pause playback
Loop
Print the tab
Zoom
PageSwitch between page and horizontal view mode

How to Read Bass Tab: A Beginner's Guide

1. Understanding the Basics

a. Strings:

Bass tab consists of horizontal lines representing the strings of the bass guitar. The lowest-pitched string (usually the E string) is at the bottom, and the highest-pitched string (usually the G string) is at the top.

b. Numbers:

Numbers on the lines indicate which fret to play on a specific string. For example, if you see "3" on the E string, it means you should press down the third fret on the lowest string.

2. Reading Bass Tab Example

In this tab:

  • Play the note on the 1st fret of the E string.
  • Play the open E string.
  • Play the 3rd fret on the A string.
  • Play the 1st fret on the A string.
        G|-----------------|
        D|-----------------|
        A|---------3-------|
        E|---1-1---1---3---|
    

3. Playing Techniques

a. Hammer-ons and Pull-offs:

Hammer-ons are represented by an "h" (e.g., 5h7 means play the 5th fret and hammer onto the 7th fret). Pull-offs are represented by a "p" (e.g., 7p5 means play the 7th fret and pull off to the 5th fret).

b. Slides:

Slides are often indicated by an "/" or "\\" between two numbers (e.g., 5/7 means slide from the 5th fret to the 7th fret).

BassTabz is a bass tab library maintained by professional Guitar Pro transcribers. With over 15 years of experience, we try to transcribe as accurately as possible, we transcribe bass tabs for free. Learn More

Disclaimer: We do not host images, MP3s or lyrics. This Bass Tab is a transcription by a musician, not written by the original artist, for education and personal use only.
© 2024 BassTabz - WordPress Theme by WPEnjoy