Cheeseburger Family

Cheeseburger Family

[Intro]

                              (What?)

G|------------------------------------------|
D|----------------2-------------------2-----|
A|------------3-----0-------------3-----3-1-|
E|-1---3--------------0---1---3-------------|

G|-------------------------------------------------------------------------|
G|-------------------------0-2---------------------------------0-2---------|
A|-------------------3-3-3-----0-0-----------------------3-3-3-----0-0-----|
E|-1-1-1-1-3-3-3-3-3---------------0-0-1-1-1-1-3-3-3-3-3---------------0-0-|

G|-----------------------------------------------------------------|
G|-------------------------0-2---------------------------------0-2-|
A|-------------------3-3-3-----0-0-----------------------3-3-3-----|
E|-1-1-1-1-3-3-3-3-3---------------0-0-1-1-1-1-3-3-3-3-3-----------|

[Verse 1]

On the side, or below it

G|-------|
D|-------|
A|-------|
E|-1---3-|

No use countin', but it

G|---------|
D|-----2---|
A|-3-----0-|
E|---------|

There it was, below it

G|-----------|
D|-----------|
A|-----------|
E|-0---1---3-|

Only farther right

G|-----------|
D|-----2-----|
A|-3-----3-1-|
E|-----------|

Say grace and move on

G|-------|
D|-------|
A|-------|
E|-1---3-|

And the kids are havin' children of their own

G|---------|
D|-----2---|
A|-3-----0-|
E|---------|

So you know (Know-know)

G|-----------|
D|-----------|
A|-----------|
E|-0---1---3-|

(What?) You know the recipe stays alive

G|-----------|
D|-----2-----|
A|-3-----3-1-|
E|-----------|

(Like a butterfly!)

[Chorus]

Oh, the Cheeseburger Family!

G|-----------------------|
G|-----------------------|
A|-------------------3-3-|
E|-1-1-1-1-3-3-3-3-3-----|

Hand me down my suit and tie

G|-------------------||
G|---0-2-------------|
A|-3-----0-0---------|
E|-----------0-0-1-1-|

Arigato family!

G|-------------------|
G|-------------------|
A|---------------3-3-|
E|-1-1-3-3-3-3-3-----|

I'll be dancin' 'til dinner time

G|---------------|
G|---0-2---------|
A|-3-----0-0-----|
E|-----------0-0-|

Oh, the Cheeseburger Family!

G|-----------------------|
G|-----------------------|
A|-------------------3-3-|
E|-1-1-1-1-3-3-3-3-3-----|

Hand me down my suit and tie

G|-------------------||
G|---0-2-------------|
A|-3-----0-0---------|
E|-----------0-0-1-1-|

Arigato family!

G|-------------------|
G|-------------------|
A|---------------3-3-|
E|-1-1-3-3-3-3-3-----|

I'll be dancin' 'til dinner time

G|---------------|
G|---0-2---------|
A|-3-----0-0-----|
E|-----------0-0-|

[Refrain]

(Hey, what do ya know, tomato, tomato!)

G|-------------------------|
G|-------------------------|
A|--------------------0----|
E|-1-1/3--3-----0----------|

(What's the difference?)

Oh, the Cheeseburger Family!

G|---------------|
G|---------------|
A|-------0-------|
E|-0-----------1-|

(Then why would you say so?)

G|--------------|
G|--------------|
A|--------------|
E|-1/3--3-----0-|

I don't know!

G|----------|
G|----------|
A|-----0----|
E|-0--------|

                    Oh, the Cheeseburger Family!

G|-------------------------------------------------------------------------|
G|-------------------------0-2---------------------------------0-2---------|
A|-------------------3-3-3-----0-0-----------------------3-3-3-----0-0-----|
E|-1-1-1-1-3-3-3-3-3---------------0-0-1-1-1-1-3-3-3-3-3---------------0-0-|

[Verse 2]

From the time you were born

G|-------|
D|-------|
A|-------|
E|-1---3-|

Flowers have blossomed, trees have grown

G|---------|
D|-----2---|
A|-3-----0-|
E|---------|

You, oh and I

G|-----------|
D|-----------|
A|-----------|
E|-0---1---3-|

Different in my sight

G|-----------|
D|-----2-----|
A|-3-----3-1-|
E|-----------|

As with mine, and the lord

G|-------|
D|-------|
A|-------|
E|-1---3-|

It's kinda something special

G|---------|
D------2---|
A|-3-----0-|
E|---------|

To close the fight (What?)

G|-----------|
D|-----------|
A|-----------|
E|-0---1---3-|

Nothin' more divine

G|-----------|
D|-----2-----|
A|-3-----3-1-|
E|-----------|

(Oh, what'cha doin'-doin'?)

(Dinnertime!)

[Chorus]

Oh, the Cheeseburger Family!

G|-----------------------|
G|-----------------------|
A|-------------------3-3-|
E|-1-1-1-1-3-3-3-3-3-----|

Hand me down my suit and tie

G|-------------------||
G|---0-2-------------|
A|-3-----0-0---------|
E|-----------0-0-1-1-|

Arigato family!

G|-------------------|
G|-------------------|
A|---------------3-3-|
E|-1-1-3-3-3-3-3-----|

I'll be dancin' 'til dinner time

G|---------------|
G|---0-2---------|
A|-3-----0-0-----|
E|-----------0-0-|

Oh, the Cheeseburger Family!

G|-----------------------|
G|-----------------------|
A|-------------------3-3-|
E|-1-1-1-1-3-3-3-3-3-----|

Hand me down my suit and tie

G|-------------------||
G|---0-2-------------|
A|-3-----0-0---------|
E|-----------0-0-1-1-|

Arigato family!

G|-------------------|
G|-------------------|
A|---------------3-3-|
E|-1-1-3-3-3-3-3-----|

I'll be dancin'

G|---------|
G|---0-2---|
A|-3-----0-|
E|---------|

[Verse 3]

Five in the morning, kids are still snoring

G|-----------------|
G|-----------------|
A|-----------------|
E|-3-3-3-3-7-7-x-7-|

Dad's in the kitchen, have you ever seen such a meal?

G|--------------------------|
G|-7-7-7-x------------------|
A|---------8-8-8-10---------|
E|--------------------------|

Black coffee baby, beef can bring gravy

G|-----------------|
G|-----------------|
A|-----------------|
E|-3-3-3-3-7-7-7-7-|

Moment to be lazy, have you ever seen such a meal?

G|--------------------------|
G|-x-7-x-x------------------|
A|---------8-8-8-10---------|
E|--------------------------|

Backyard daisies, sleepy healthy baby

G|-------------4-|
G|-----2---2-----|
G|-3-------------|
E|---------------|

Lettuce and tomato, have you ever seen such a meal?

G|-5--4-2----------0-|
G|---------2-3-------|
G|-------------------|
E|-------------------|

Dad sees the babies growing up slowly

G|-------------4-|
G|-----2---2-----|
G|-3-----3-------|
E|---------------|

Holds on softly, have you ever seen such—

G|-5-4-2----------|
G|-------2-3--3-5-|
G|----------------|
E|----------------|

[Bridge]

G|---------------------------------|
G|---------------------------------|
G|-3-3-3-3-3-3-3-3-3-3-3-3-3-3-3-3-| x 8
E|---------------------------------|

It's a combo sized meal (It's a combo meal)

G|---------------------------------|
G|---------------------------------|
G|-3-3-3-3-3-3-3-3-3-3-3-3-3-3-3-3-|
E|---------------------------------|

It's a family deal (It's a family deal)

G|---------------------------------|
G|---------------------------------|
G|-3-3-3-3-3-3-3-3-3-3-3-3-3-3-3-3-|
E|---------------------------------|

It's a combo sized meal (It's a combo meal)

G|---------------------------------|
G|---------------------------------|
G|-3-3-3-3-3-3-3-3-3-3-3-3-3-3-3-3-|
E|---------------------------------|

It's a family deal (It's a family deal)

G|---------------------------------|
G|---------------------------------|
G|-3-3-3-3-3-3-3-3-3-3-3-3-3-3-3-3-|
E|---------------------------------|

It's a combo sized meal, it's a family deal

G|---------------------------------|
G|---------------------------------|
G|-3-3-3-3-3-3-3-3-3-3-3-3-3-3-3-3-|
E|---------------------------------|

It's a combo sized meal, it's a family deal

G|---------------------------------|
G|---------------------------------|
G|-3-3-3-3-3-3-3-3-3-3-3-3-3-3-3-3-|
E|---------------------------------|

It's a combo sized meal, it's a family deal

G|---------------------------------|
G|---------------------------------|
G|-3-3-3-3-3-3-3-3-3-3-3-3-3-3-3-3-|
E|---------------------------------|

It's a combo sized meal, it's a family deal

G|---------------------------------|
G|---------------------------------|
G|-3-3-3-3-3-3-3-3-3-3-3-3-3-3-3-3-|
E|---------------------------------|

[Outro]

(Oh, Cheeseburger Family!)

G|---------------|
G|-3-----5-----2-|
G|---------------|
E|-1-----3-----0-|

Hand me down my suit and tie

G|-4-------------|
G|-------3-------|
G|-2-------------|
E|-------1-------|

(Arigato family!)

G|---------------|
G|-5-----2-------|
G|---------------|
E|-3-----0-------|

(Dancin' dinnertime)

G|-4-------------|
G|-------3-------|
G|-2-------------|
E|-------1-------|

|Legend|

Mute Note: x
Bass Tabs
TitleCheeseburger Family
ArtistJack Stauber
Tablature TypeASCII Tab
YouTube IDJa2QEKEwxc4

Interactive Bass Tab Guide

Interactive bass tabs provide a better experience than ASCII tabs. With playback, loop, print features and a responsive display that follows the screen of your device.

Use these buttons to control the digital tab player.

SymbolFunction
Move cursor to the first bar
Play interactive tabs
Pause playback
Loop
Print the tab
Zoom
PageSwitch between page and horizontal view mode

How to Read Bass Tab: A Beginner's Guide

1. Understanding the Basics

a. Strings:

Bass tab consists of horizontal lines representing the strings of the bass guitar. The lowest-pitched string (usually the E string) is at the bottom, and the highest-pitched string (usually the G string) is at the top.

b. Numbers:

Numbers on the lines indicate which fret to play on a specific string. For example, if you see "3" on the E string, it means you should press down the third fret on the lowest string.

2. Reading Bass Tab Example

In this tab:

  • Play the note on the 1st fret of the E string.
  • Play the open E string.
  • Play the 3rd fret on the A string.
  • Play the 1st fret on the A string.
        G|-----------------|
        D|-----------------|
        A|---------3-------|
        E|---1-1---1---3---|
    

3. Playing Techniques

a. Hammer-ons and Pull-offs:

Hammer-ons are represented by an "h" (e.g., 5h7 means play the 5th fret and hammer onto the 7th fret). Pull-offs are represented by a "p" (e.g., 7p5 means play the 7th fret and pull off to the 5th fret).

b. Slides:

Slides are often indicated by an "/" or "\\" between two numbers (e.g., 5/7 means slide from the 5th fret to the 7th fret).

BassTabz is a bass tab library maintained by professional Guitar Pro transcribers. With over 15 years of experience, we try to transcribe as accurately as possible, we transcribe bass tabs for free. Learn More

Disclaimer: We do not host images, MP3s or lyrics. This Bass Tab is a transcription by a musician, not written by the original artist, for education and personal use only.
© 2024 BassTabz - WordPress Theme by WPEnjoy