Bodys

Bodys Bass Tab

(no bass until 1:20)

That’s not what I meant to say at all

I mean, I’m sick of meaning

I just wanna hold you

But that’s not what I wanted to say at all

I mean, I’m sick of meaning

I just wanna hold you

[Bass time]

Is it the chorus yet?
G|------------------------------------------|
D|-0-0-0-12---0-0-0-12---0-0-0-12---0-0-0-12|
A|------------------------------------------|
E| -----------------------------------------|                                 

G|------------------------------------------|
D|-0-0-0-9---0-0-0-9---0-0-0-9---0-0-0-9----|
A|------------------------------------------|
E| -----------------------------------------|

G|------------------------------------------|
D|-0-0-0-7---0-0-0-7---0-0-0-7---0-0-0-7----|
A|------------------------------------------|
E| -----------------------------------------|

G|------------------------------------------|
D|-0-0-0-5---0-0-0-5---0-0-0-5---0-0-0-5----|
A|------------------------------------------|
E| -----------------------------------------|
[Verse 2]

I would speak to you in song
G|------------------------------------------|
D|-0-0-0-12---0-0-0-12---0-0-0-12---0-0-0-12|
A|------------------------------------------|
E| -----------------------------------------|                                 

G|------------------------------------------|
D|-0-0-0-9---0-0-0-9---0-0-0-9---0-0-0-9----|
A|------------------------------------------|
E| -----------------------------------------|

G|------------------------------------------|
D|-0-0-0-7---0-0-0-7---0-0-0-7---0-0-0-7----|
A|------------------------------------------|
E| -----------------------------------------|

G|------------------------------------------|
D|-0-0-0-5---0-0-0-5---0-0-0-5---0-0-0-5----|
A|------------------------------------------|
E| -----------------------------------------| 

[Pre-Chorus]

G|------------------------------------------|
D|-0-0-0-12---0-0-0-12---0-0-0-12---0-0-0-12|
A|------------------------------------------|
E| -----------------------------------------|                                 

G|------------------------------------------|
D|-0-0-0-9---0-0-0-9---0-0-0-9---0-0-0-9----|
A|------------------------------------------|
E| -----------------------------------------|

G|------------------------------------------|
D|-0-0-0-7---0-0-0-7---0-0-0-7---0-0-0-7----|
A|------------------------------------------|
E| -----------------------------------------|

G|------------------------------------------|
D|-0-0-0-5---0-0-0-5---0-0-0-5---0-0-0-5----|
A|------------------------------------------|
E| -----------------------------------------| 

[Chorus 1]
Everybody's dancing every dance now!    (play each note 16 times)
G|------------------------------------------|
D|------------------------------------------|
A|-5555555555555555-7777777777777777--------|
E| -----------------------------------------|

G|----------------------------------------------------|
D|----------------------------------------------------|
A|-9999999999999999-10101010101010101010101010101010--|
E| ---------------------------------------------------|

G|------------------------------------------|
D|------------------------------------------|
A|-5555555555555555-7777777777777777--------|
E| -----------------------------------------|

G|----------------------------------------------------|
D|----------------------------------------------------|
A|-9999999999999999-10101010101010101010101010101010--|
E| ---------------------------------------------------|

[Verse 3]

I have enough trouble controlling my own limbs

G|------------------------------------------|
D|-0-0-0-12---0-0-0-12---0-0-0-12---0-0-0-12|
A|------------------------------------------|
E| -----------------------------------------|                                 

G|------------------------------------------|
D|-0-0-0-9---0-0-0-9---0-0-0-9---0-0-0-9----|
A|------------------------------------------|
E| -----------------------------------------|

G|------------------------------------------|
D|-0-0-0-7---0-0-0-7---0-0-0-7---0-0-0-7----|
A|------------------------------------------|
E| -----------------------------------------|

G|------------------------------------------|
D|-0-0-0-5---0-0-0-5---0-0-0-5---0-0-0-5----|
A|------------------------------------------|
E| -----------------------------------------| 

G|------------------------------------------|
D|-0-0-0-12---0-0-0-12---0-0-0-12---0-0-0-12|
A|------------------------------------------|
E| -----------------------------------------|                                 

G|------------------------------------------|
D|-0-0-0-9---0-0-0-9---0-0-0-9---0-0-0-9----|
A|------------------------------------------|
E| -----------------------------------------|

G|------------------------------------------|
D|-0-0-0-7---0-0-0-7---0-0-0-7---0-0-0-7----|
A|------------------------------------------|
E| -----------------------------------------|

G|------------------------------------------|
D|-0-0-0-5---0-0-0-5---0-0-0-5---0-0-0-5----|
A|------------------------------------------|
E| -----------------------------------------| 

G|------------------------------------------|
D|-0-0-0-12---0-0-0-12---0-0-0-12---0-0-0-12|
A|------------------------------------------|
E| -----------------------------------------|                                 

G|------------------------------------------|
D|-0-0-0-9---0-0-0-9---0-0-0-9---0-0-0-9----|
A|------------------------------------------|
E| -----------------------------------------|

G|------------------------------------------|
D|-0-0-0-7---0-0-0-7---0-0-0-7---0-0-0-7----|
A|------------------------------------------|
E| -----------------------------------------|

G|------------------------------------------|
D|-0-0-0-5---0-0-0-5---0-0-0-5---0-0-0-5----|
A|------------------------------------------|
E| -----------------------------------------| 

Well so what? (still play in this part!)

G|------------------------------------------|
D|-0-0-0-12---0-0-0-12---0-0-0-12---0-0-0-12|
A|------------------------------------------|
E| -----------------------------------------|                                 

G|------------------------------------------|
D|-0-0-0-7---0-0-0-7---0-0-0-7---0-0-0-7----|
A|------------------------------------------|
E| -----------------------------------------|

G|------------------------------------------|
D|-0-0-0-5---0-0-0-5---0-0-0-5---0-0-0-5----|
A|------------------------------------------|
E| -----------------------------------------| 

We're alive (most of us)

[Chorus 2]

Don’t you realize our bodies could fall apart at any second?

G|------------------------------------------|
D|------------------------------------------|
A|-5555555555555555-7777777777777777--------|
E| -----------------------------------------|

G|---------------------------------------------------------|
D|---------------------------------------------------------
A|-9999999999999999-10101010101010101010101010101010-------|
E| --------------------------------------------------------|

G|------------------------------------------|
D|------------------------------------------|
A|-5555555555555555-7777777777777777--------|
E| -----------------------------------------|

G|---------------------------------------------------------|
D|---------------------------------------------------------|
A|-9999999999999999-10101010101010101010101010101010-------|
E| --------------------------------------------------------|

G|------------------------------------------|
D|------------------------------------------|
A|-5555555555555555-7777777777777777--------|
E| -----------------------------------------|

G|---------------------------------------------------------|
D|---------------------------------------------------------|
A|-9999999999999999-10101010101010101010101010101010-------|
E| --------------------------------------------------------|         

G|------------------------------------------|
D|------------------------------------------|
A|-5555555555555555-7777777777777777--------|
E| -----------------------------------------|

G|---------------------------------------------------------|
D|---------------------------------------------------------|
A|-9999999999999999-10101010101010101010101010101010-------|
E| --------------------------------------------------------|

Next time can we Please meet at my place?

           [no bass for a bit!]

And I know that I don’t talk a lot

But I know that you don’t care a lot

As long as we move our bodies around a lot

We’ll forget that we forgot how to talk
G|------------------------------------------|
D|------------------------------------------|
A|-5555555555555555-------------------------|
E| ------------------3333333333333333-------|
(again, play each note 16 times)

[Chorus 3]

When we dance, when we
G|------------------------------------------|
D|------------------------------------------|
A|-5555555555555555-------------------------|
E| -----------------------------------------|

G|------------------------------------------|
D|------------------------------------------|
A|-10101010101010101010101010101010---------|
E| -----------------------------------------|

G|------------------------------------------|
D|------------------------------------------|
A|-17171717171717171717171717171717---------|
E| -----------------------------------------|

G|------------------------------------------|
D|------------------------------------------|
A|-10101010101010101010101010101010---------|
E| -----------------------------------------|

G|------------------------------------------|
D|------------------------------------------|
A|-5555555555555555-------------------------|
E| -----------------------------------------|

G|------------------------------------------|
D|------------------------------------------|
A|-10101010101010101010101010101010---------|
E| -----------------------------------------|

G|------------------------------------------|
D|------------------------------------------|
A|-17171717171717171717171717171717---------|
E| -----------------------------------------|

G|------------------------------------------|
D|------------------------------------------|
A|-10101010101010101010101010101010---------|
E| -----------------------------------------|

Don’t you realize our bodies could fall apart at any second?

G|------------------------------------------|
D|------------------------------------------|
A|-5555555555555555-7777777777777777--------|
E| -----------------------------------------|

G|---------------------------------------------------------|
D|---------------------------------------------------------|
A|-9999999999999999-10101010101010101010101010101010-------|
E| --------------------------------------------------------|         

G|------------------------------------------|
D|------------------------------------------|
A|-5555555555555555-7777777777777777--------|
E| -----------------------------------------|

G|---------------------------------------------------------|
D|---------------------------------------------------------|
A|-9999999999999999-10101010101010101010101010101010-------|
E| --------------------------------------------------------|         

G|------------------------------------------|
D|------------------------------------------|
A|-5555555555555555-7777777777777777--------|
E| -----------------------------------------|

G|---------------------------------------------------------|
D|---------------------------------------------------------|
A|-9999999999999999-10101010101010101010101010101010-------|
E| --------------------------------------------------------|         

G|------------------------------------------|
D|------------------------------------------|
A|-5555555555555555-7777777777777777--------|
E| -----------------------------------------|

G|---------------------------------------------------------|
D|---------------------------------------------------------|
A|-9999999999999999-10101010101010101010101010101010-------|
E| --------------------------------------------------------|         

this is my first tab so i hope its ok! i got most of this done through watching andrew sunday's
(on youtube) cover and also my own listening.
Bass Tabs
TitleBodys
ArtistCar Seat Headrest
Tablature TypeASCII Tab
YouTube IDYQW41Jtgeew

Interactive Bass Tab Guide

Interactive bass tabs provide a better experience than ASCII tabs. With playback, loop, print features and a responsive display that follows the screen of your device.

Use these buttons to control the digital tab player.

SymbolFunction
Move cursor to the first bar
Play interactive tabs
Pause playback
Loop
Print the tab
Zoom
PageSwitch between page and horizontal view mode

How to Read Bass Tab: A Beginner's Guide

1. Understanding the Basics

a. Strings:

Bass tab consists of horizontal lines representing the strings of the bass guitar. The lowest-pitched string (usually the E string) is at the bottom, and the highest-pitched string (usually the G string) is at the top.

b. Numbers:

Numbers on the lines indicate which fret to play on a specific string. For example, if you see "3" on the E string, it means you should press down the third fret on the lowest string.

2. Reading Bass Tab Example

In this tab:

  • Play the note on the 1st fret of the E string.
  • Play the open E string.
  • Play the 3rd fret on the A string.
  • Play the 1st fret on the A string.
        G|-----------------|
        D|-----------------|
        A|---------3-------|
        E|---1-1---1---3---|
    

3. Playing Techniques

a. Hammer-ons and Pull-offs:

Hammer-ons are represented by an "h" (e.g., 5h7 means play the 5th fret and hammer onto the 7th fret). Pull-offs are represented by a "p" (e.g., 7p5 means play the 7th fret and pull off to the 5th fret).

b. Slides:

Slides are often indicated by an "/" or "\\" between two numbers (e.g., 5/7 means slide from the 5th fret to the 7th fret).

BassTabz is a bass tab library maintained by professional Guitar Pro transcribers. With over 15 years of experience, we try to transcribe as accurately as possible, we transcribe bass tabs for free. Learn More

Disclaimer: We do not host images, MP3s or lyrics. This Bass Tab is a transcription by a musician, not written by the original artist, for education and personal use only.
© 2024 BassTabz - WordPress Theme by WPEnjoy