Adolescent Sex

Adolescent Sex Bass Tab

Tabbed by: bassm99
E-mail: alanmatthews1966@yahoo.co.uk

Tuning: E, A, D, G

"Adolescent Sex" from the single "The Uncoventional/Adolescent Sex" (1978)
Written by D.Sylvian

Intro:

G|---------4--------------4----4------------------4----4----------4--------4-------|
D|-----------------20------------------20------------------20------------------20--|
A|--0-2-0-2--0-2-0-----0-2--0-2--0-2-0-----0-2-0-2--0-2--0-----0-2--0-2-0-2--0-----|
E|---------------------------------------------------------------------------------|

G|---------4----4----------4--------4---------4----4-------------4----4----4-------|
D|------------------20------------------20-----------------20------------------20--|
A|--0-2-0-2--0-2--0-----0-2--0-2-0-2--0----0-2--0-2--0-2-0----0-2--0-2--0-2--0-----|
E|---------------------------------------------------------------------------------|

Verse: (Play 8 Times)

G|---------------------------------------------------------------------------------|
D|----------------20---------------------------------------------------------------|
A|--0-2-0-2-0-2-0------------------------------------------------------------------|
E|---------------------------------------------------------------------------------|

Chorus: (Play 4 Times)

G|---------------------------------------------------------------------------------|
D|-----------------------------------0---------------------------------------------|
A|--3-333----------11-------3-333------02233--55555-55-----------------------------|
E|--------11-3-333----(x3)--------11-----------------------------------------------|

Pre Verse: (Play 4 Times)

G|---------------------------------------------------------------------------------|
D|----------------20---------------------------------------------------------------|
A|--0-2-0-2-0-2-0------------------------------------------------------------------|
E|---------------------------------------------------------------------------------|

Repeat Verse:

Repeat Chorus:

Bridge: (Play 8 Times)

G|---------------------------------------------------------------------------------|
D|----------------20---------------------------------------------------------------|
A|--0-2-0-2-0-2-0------------------------------------------------------------------|
E|---------------------------------------------------------------------------------|

Synth/Effects Solo: (Play 6 Times)

G|---------------------------------------------------------------------------------|
D|----------------20---------------------------------------------------------------|
A|--0-2-0-2-0-2-0------------------------------------------------------------------|
E|---------------------------------------------------------------------------------|

Repeat Chorus:

Repeat Bridge:

End:

G|---------------------------------------------------------------------------------|
D|---------------------------------------------------------------------------------|
A|--0-2----------------------------------------------------------------------------|
E|---------------------------------------------------------------------------------|
Bass Tabs
TitleAdolescent Sex
ArtistJapan
Tablature TypeASCII Tab
YouTube IDWzI7cltLsCw

Interactive Bass Tab Guide

Interactive bass tabs provide a better experience than ASCII tabs. With playback, loop, print features and a responsive display that follows the screen of your device.

Use these buttons to control the digital tab player.

SymbolFunction
Move cursor to the first bar
Play interactive tabs
Pause playback
Loop
Print the tab
Zoom
PageSwitch between page and horizontal view mode

How to Read Bass Tab: A Beginner's Guide

1. Understanding the Basics

a. Strings:

Bass tab consists of horizontal lines representing the strings of the bass guitar. The lowest-pitched string (usually the E string) is at the bottom, and the highest-pitched string (usually the G string) is at the top.

b. Numbers:

Numbers on the lines indicate which fret to play on a specific string. For example, if you see "3" on the E string, it means you should press down the third fret on the lowest string.

2. Reading Bass Tab Example

In this tab:

  • Play the note on the 1st fret of the E string.
  • Play the open E string.
  • Play the 3rd fret on the A string.
  • Play the 1st fret on the A string.
        G|-----------------|
        D|-----------------|
        A|---------3-------|
        E|---1-1---1---3---|
    

3. Playing Techniques

a. Hammer-ons and Pull-offs:

Hammer-ons are represented by an "h" (e.g., 5h7 means play the 5th fret and hammer onto the 7th fret). Pull-offs are represented by a "p" (e.g., 7p5 means play the 7th fret and pull off to the 5th fret).

b. Slides:

Slides are often indicated by an "/" or "\\" between two numbers (e.g., 5/7 means slide from the 5th fret to the 7th fret).

BassTabz is a bass tab library maintained by professional Guitar Pro transcribers. With over 15 years of experience, we try to transcribe as accurately as possible, we transcribe bass tabs for free. Learn More

Disclaimer: We do not host images, MP3s or lyrics. This Bass Tab is a transcription by a musician, not written by the original artist, for education and personal use only.
© 2024 BassTabz - WordPress Theme by WPEnjoy